  0
SECTION
  2
HEADER
  9
$ACADVER
  1
AC1009
  9
$FILLMODE
 70
1
  9
$EXTMIN
 10
-150.000000
 20
-50.000000
 30
0
  9
$EXTMAX
 10
150.000000
 20
50.000000
 30
0
  0
ENDSEC
  0
SECTION
  2
TABLES
  0
TABLE
  2
LTYPE
  0
LTYPE
  2
CONTINUOUS
 70
64
  3
Solid Line
 72
65
 73
0
 40
0
  0
ENDTAB
  0
TABLE
  2
LAYER
  0
LAYER
  2
29_FRONTPLATTEKONTUREN
 70
64
 62
250
  6
CONTINUOUS
  0
ENDTAB
  0
ENDSEC
  0
SECTION
  2
BLOCKS
  0
ENDSEC
  0
SECTION
  2
ENTITIES
  0
POLYLINE
  8
29_FRONTPLATTEKONTUREN
 66
1
 40
0.300000
 41
0.300000
  0
VERTEX
  8
29_FRONTPLATTEKONTUREN
 10
-120.000000
 20
50.000000
  0
VERTEX
  8
29_FRONTPLATTEKONTUREN
 10
-120.000000
 20
45.000000
  0
SEQEND
  0
POLYLINE
  8
29_FRONTPLATTEKONTUREN
 66
1
 40
0.150000
 41
0.150000
  0
VERTEX
  8
29_FRONTPLATTEKONTUREN
 10
-119.925000
 20
50.000000
 42
1
  0
VERTEX
  8
29_FRONTPLATTEKONTUREN
 10
-120.075000
 20
50.000000
  0
SEQEND
  0
POLYLINE
  8
29_FRONTPLATTEKONTUREN
 66
1
 40
0.150000
 41
0.150000
  0
VERTEX
  8
29_FRONTPLATTEKONTUREN
 10
-119.925000
 20
45.000000
 42
-1
  0
VERTEX
  8
29_FRONTPLATTEKONTUREN
 10
-120.075000
 20
45.000000
  0
SEQEND
  0
POLYLINE
  8
29_FRONTPLATTEKONTUREN
 66
1
 40
0.300000
 41
0.300000
  0
VERTEX
  8
29_FRONTPLATTEKONTUREN
 10
-120.000000
 20
45.000000
  0
VERTEX
  8
29_FRONTPLATTEKONTUREN
 10
-140.000000
 20
45.000000
  0
SEQEND
  0
POLYLINE
  8
29_FRONTPLATTEKONTUREN
 66
1
 40
0.150000
 41
0.150000
  0
VERTEX
  8
29_FRONTPLATTEKONTUREN
 10
-120.000000
 20
44.925000
 42
1
  0
VERTEX
  8
29_FRONTPLATTEKONTUREN
 10
-120.000000
 20
45.075000
  0
SEQEND
  0
POLYLINE
  8
29_FRONTPLATTEKONTUREN
 66
1
 40
0.150000
 41
0.150000
  0
VERTEX
  8
29_FRONTPLATTEKONTUREN
 10
-140.000000
 20
44.925000
 42
-1
  0
VERTEX
  8
29_FRONTPLATTEKONTUREN
 10
-140.000000
 20
45.075000
  0
SEQEND
  0
POLYLINE
  8
29_FRONTPLATTEKONTUREN
 66
1
 40
0.300000
 41
0.300000
  0
VERTEX
  8
29_FRONTPLATTEKONTUREN
 10
-150.000000
 20
35.000000
  0
VERTEX
  8
29_FRONTPLATTEKONTUREN
 10
-150.000000
 20
-32.000000
  0
SEQEND
  0
POLYLINE
  8
29_FRONTPLATTEKONTUREN
 66
1
 40
0.150000
 41
0.150000
  0
VERTEX
  8
29_FRONTPLATTEKONTUREN
 10
-149.925000
 20
35.000000
 42
1
  0
VERTEX
  8
29_FRONTPLATTEKONTUREN
 10
-150.075000
 20
35.000000
  0
SEQEND
  0
POLYLINE
  8
29_FRONTPLATTEKONTUREN
 66
1
 40
0.150000
 41
0.150000
  0
VERTEX
  8
29_FRONTPLATTEKONTUREN
 10
-149.925000
 20
-32.000000
 42
-1
  0
VERTEX
  8
29_FRONTPLATTEKONTUREN
 10
-150.075000
 20
-32.000000
  0
SEQEND
  0
POLYLINE
  8
29_FRONTPLATTEKONTUREN
 66
1
 40
0.300000
 41
0.300000
  0
VERTEX
  8
29_FRONTPLATTEKONTUREN
 10
-100.000000
 20
-42.000000
  0
VERTEX
  8
29_FRONTPLATTEKONTUREN
 10
-140.000000
 20
-42.000000
  0
SEQEND
  0
POLYLINE
  8
29_FRONTPLATTEKONTUREN
 66
1
 40
0.150000
 41
0.150000
  0
VERTEX
  8
29_FRONTPLATTEKONTUREN
 10
-100.000000
 20
-42.075000
 42
1
  0
VERTEX
  8
29_FRONTPLATTEKONTUREN
 10
-100.000000
 20
-41.925000
  0
SEQEND
  0
POLYLINE
  8
29_FRONTPLATTEKONTUREN
 66
1
 40
0.150000
 41
0.150000
  0
VERTEX
  8
29_FRONTPLATTEKONTUREN
 10
-140.000000
 20
-42.075000
 42
-1
  0
VERTEX
  8
29_FRONTPLATTEKONTUREN
 10
-140.000000
 20
-41.925000
  0
SEQEND
  0
POLYLINE
  8
29_FRONTPLATTEKONTUREN
 66
1
 40
0.300000
 41
0.300000
  0
VERTEX
  8
29_FRONTPLATTEKONTUREN
 10
-100.000000
 20
-42.000000
  0
VERTEX
  8
29_FRONTPLATTEKONTUREN
 10
-100.000000
 20
-50.000000
  0
SEQEND
  0
POLYLINE
  8
29_FRONTPLATTEKONTUREN
 66
1
 40
0.150000
 41
0.150000
  0
VERTEX
  8
29_FRONTPLATTEKONTUREN
 10
-99.925000
 20
-42.000000
 42
1
  0
VERTEX
  8
29_FRONTPLATTEKONTUREN
 10
-100.075000
 20
-42.000000
  0
SEQEND
  0
POLYLINE
  8
29_FRONTPLATTEKONTUREN
 66
1
 40
0.150000
 41
0.150000
  0
VERTEX
  8
29_FRONTPLATTEKONTUREN
 10
-99.925000
 20
-50.000000
 42
-1
  0
VERTEX
  8
29_FRONTPLATTEKONTUREN
 10
-100.075000
 20
-50.000000
  0
SEQEND
  0
POLYLINE
  8
29_FRONTPLATTEKONTUREN
 66
1
 40
0.300000
 41
0.300000
  0
VERTEX
  8
29_FRONTPLATTEKONTUREN
 10
-100.000000
 20
-50.000000
  0
VERTEX
  8
29_FRONTPLATTEKONTUREN
 10
100.000000
 20
-50.000000
  0
SEQEND
  0
POLYLINE
  8
29_FRONTPLATTEKONTUREN
 66
1
 40
0.150000
 41
0.150000
  0
VERTEX
  8
29_FRONTPLATTEKONTUREN
 10
-100.000000
 20
-49.925000
 42
1
  0
VERTEX
  8
29_FRONTPLATTEKONTUREN
 10
-100.000000
 20
-50.075000
  0
SEQEND
  0
POLYLINE
  8
29_FRONTPLATTEKONTUREN
 66
1
 40
0.150000
 41
0.150000
  0
VERTEX
  8
29_FRONTPLATTEKONTUREN
 10
100.000000
 20
-49.925000
 42
-1
  0
VERTEX
  8
29_FRONTPLATTEKONTUREN
 10
100.000000
 20
-50.075000
  0
SEQEND
  0
POLYLINE
  8
29_FRONTPLATTEKONTUREN
 66
1
 40
0.300000
 41
0.300000
  0
VERTEX
  8
29_FRONTPLATTEKONTUREN
 10
100.000000
 20
-50.000000
  0
VERTEX
  8
29_FRONTPLATTEKONTUREN
 10
100.000000
 20
-42.000000
  0
SEQEND
  0
POLYLINE
  8
29_FRONTPLATTEKONTUREN
 66
1
 40
0.150000
 41
0.150000
  0
VERTEX
  8
29_FRONTPLATTEKONTUREN
 10
99.925000
 20
-50.000000
 42
1
  0
VERTEX
  8
29_FRONTPLATTEKONTUREN
 10
100.075000
 20
-50.000000
  0
SEQEND
  0
POLYLINE
  8
29_FRONTPLATTEKONTUREN
 66
1
 40
0.150000
 41
0.150000
  0
VERTEX
  8
29_FRONTPLATTEKONTUREN
 10
99.925000
 20
-42.000000
 42
-1
  0
VERTEX
  8
29_FRONTPLATTEKONTUREN
 10
100.075000
 20
-42.000000
  0
SEQEND
  0
POLYLINE
  8
29_FRONTPLATTEKONTUREN
 66
1
 40
0.300000
 41
0.300000
  0
VERTEX
  8
29_FRONTPLATTEKONTUREN
 10
100.000000
 20
-42.000000
  0
VERTEX
  8
29_FRONTPLATTEKONTUREN
 10
140.000000
 20
-42.000000
  0
SEQEND
  0
POLYLINE
  8
29_FRONTPLATTEKONTUREN
 66
1
 40
0.150000
 41
0.150000
  0
VERTEX
  8
29_FRONTPLATTEKONTUREN
 10
100.000000
 20
-41.925000
 42
1
  0
VERTEX
  8
29_FRONTPLATTEKONTUREN
 10
100.000000
 20
-42.075000
  0
SEQEND
  0
POLYLINE
  8
29_FRONTPLATTEKONTUREN
 66
1
 40
0.150000
 41
0.150000
  0
VERTEX
  8
29_FRONTPLATTEKONTUREN
 10
140.000000
 20
-41.925000
 42
-1
  0
VERTEX
  8
29_FRONTPLATTEKONTUREN
 10
140.000000
 20
-42.075000
  0
SEQEND
  0
POLYLINE
  8
29_FRONTPLATTEKONTUREN
 66
1
 40
0.300000
 41
0.300000
  0
VERTEX
  8
29_FRONTPLATTEKONTUREN
 10
150.000000
 20
35.000000
  0
VERTEX
  8
29_FRONTPLATTEKONTUREN
 10
150.000000
 20
-32.000000
  0
SEQEND
  0
POLYLINE
  8
29_FRONTPLATTEKONTUREN
 66
1
 40
0.150000
 41
0.150000
  0
VERTEX
  8
29_FRONTPLATTEKONTUREN
 10
150.075000
 20
35.000000
 42
1
  0
VERTEX
  8
29_FRONTPLATTEKONTUREN
 10
149.925000
 20
35.000000
  0
SEQEND
  0
POLYLINE
  8
29_FRONTPLATTEKONTUREN
 66
1
 40
0.150000
 41
0.150000
  0
VERTEX
  8
29_FRONTPLATTEKONTUREN
 10
150.075000
 20
-32.000000
 42
-1
  0
VERTEX
  8
29_FRONTPLATTEKONTUREN
 10
149.925000
 20
-32.000000
  0
SEQEND
  0
POLYLINE
  8
29_FRONTPLATTEKONTUREN
 66
1
 40
0.300000
 41
0.300000
  0
VERTEX
  8
29_FRONTPLATTEKONTUREN
 10
120.000000
 20
45.000000
  0
VERTEX
  8
29_FRONTPLATTEKONTUREN
 10
140.000000
 20
45.000000
  0
SEQEND
  0
POLYLINE
  8
29_FRONTPLATTEKONTUREN
 66
1
 40
0.150000
 41
0.150000
  0
VERTEX
  8
29_FRONTPLATTEKONTUREN
 10
120.000000
 20
45.075000
 42
1
  0
VERTEX
  8
29_FRONTPLATTEKONTUREN
 10
120.000000
 20
44.925000
  0
SEQEND
  0
POLYLINE
  8
29_FRONTPLATTEKONTUREN
 66
1
 40
0.150000
 41
0.150000
  0
VERTEX
  8
29_FRONTPLATTEKONTUREN
 10
140.000000
 20
45.075000
 42
-1
  0
VERTEX
  8
29_FRONTPLATTEKONTUREN
 10
140.000000
 20
44.925000
  0
SEQEND
  0
POLYLINE
  8
29_FRONTPLATTEKONTUREN
 66
1
 40
0.300000
 41
0.300000
  0
VERTEX
  8
29_FRONTPLATTEKONTUREN
 10
120.000000
 20
45.000000
  0
VERTEX
  8
29_FRONTPLATTEKONTUREN
 10
120.000000
 20
50.000000
  0
SEQEND
  0
POLYLINE
  8
29_FRONTPLATTEKONTUREN
 66
1
 40
0.150000
 41
0.150000
  0
VERTEX
  8
29_FRONTPLATTEKONTUREN
 10
119.925000
 20
45.000000
 42
1
  0
VERTEX
  8
29_FRONTPLATTEKONTUREN
 10
120.075000
 20
45.000000
  0
SEQEND
  0
POLYLINE
  8
29_FRONTPLATTEKONTUREN
 66
1
 40
0.150000
 41
0.150000
  0
VERTEX
  8
29_FRONTPLATTEKONTUREN
 10
119.925000
 20
50.000000
 42
-1
  0
VERTEX
  8
29_FRONTPLATTEKONTUREN
 10
120.075000
 20
50.000000
  0
SEQEND
  0
POLYLINE
  8
29_FRONTPLATTEKONTUREN
 66
1
 40
0.300000
 41
0.300000
  0
VERTEX
  8
29_FRONTPLATTEKONTUREN
 10
120.000000
 20
50.000000
  0
VERTEX
  8
29_FRONTPLATTEKONTUREN
 10
15.000000
 20
50.000000
  0
SEQEND
  0
POLYLINE
  8
29_FRONTPLATTEKONTUREN
 66
1
 40
0.150000
 41
0.150000
  0
VERTEX
  8
29_FRONTPLATTEKONTUREN
 10
120.000000
 20
49.925000
 42
1
  0
VERTEX
  8
29_FRONTPLATTEKONTUREN
 10
120.000000
 20
50.075000
  0
SEQEND
  0
POLYLINE
  8
29_FRONTPLATTEKONTUREN
 66
1
 40
0.150000
 41
0.150000
  0
VERTEX
  8
29_FRONTPLATTEKONTUREN
 10
15.000000
 20
49.925000
 42
-1
  0
VERTEX
  8
29_FRONTPLATTEKONTUREN
 10
15.000000
 20
50.075000
  0
SEQEND
  0
POLYLINE
  8
29_FRONTPLATTEKONTUREN
 66
1
 40
0.300000
 41
0.300000
  0
VERTEX
  8
29_FRONTPLATTEKONTUREN
 10
15.000000
 20
50.000000
  0
VERTEX
  8
29_FRONTPLATTEKONTUREN
 10
15.000000
 20
30.000000
  0
SEQEND
  0
POLYLINE
  8
29_FRONTPLATTEKONTUREN
 66
1
 40
0.150000
 41
0.150000
  0
VERTEX
  8
29_FRONTPLATTEKONTUREN
 10
15.075000
 20
50.000000
 42
1
  0
VERTEX
  8
29_FRONTPLATTEKONTUREN
 10
14.925000
 20
50.000000
  0
SEQEND
  0
POLYLINE
  8
29_FRONTPLATTEKONTUREN
 66
1
 40
0.150000
 41
0.150000
  0
VERTEX
  8
29_FRONTPLATTEKONTUREN
 10
15.075000
 20
30.000000
 42
-1
  0
VERTEX
  8
29_FRONTPLATTEKONTUREN
 10
14.925000
 20
30.000000
  0
SEQEND
  0
POLYLINE
  8
29_FRONTPLATTEKONTUREN
 66
1
 40
0.300000
 41
0.300000
  0
VERTEX
  8
29_FRONTPLATTEKONTUREN
 10
15.000000
 20
30.000000
  0
VERTEX
  8
29_FRONTPLATTEKONTUREN
 10
-15.000000
 20
30.000000
  0
SEQEND
  0
POLYLINE
  8
29_FRONTPLATTEKONTUREN
 66
1
 40
0.150000
 41
0.150000
  0
VERTEX
  8
29_FRONTPLATTEKONTUREN
 10
15.000000
 20
29.925000
 42
1
  0
VERTEX
  8
29_FRONTPLATTEKONTUREN
 10
15.000000
 20
30.075000
  0
SEQEND
  0
POLYLINE
  8
29_FRONTPLATTEKONTUREN
 66
1
 40
0.150000
 41
0.150000
  0
VERTEX
  8
29_FRONTPLATTEKONTUREN
 10
-15.000000
 20
29.925000
 42
-1
  0
VERTEX
  8
29_FRONTPLATTEKONTUREN
 10
-15.000000
 20
30.075000
  0
SEQEND
  0
POLYLINE
  8
29_FRONTPLATTEKONTUREN
 66
1
 40
0.300000
 41
0.300000
  0
VERTEX
  8
29_FRONTPLATTEKONTUREN
 10
-15.000000
 20
30.000000
  0
VERTEX
  8
29_FRONTPLATTEKONTUREN
 10
-15.000000
 20
50.000000
  0
SEQEND
  0
POLYLINE
  8
29_FRONTPLATTEKONTUREN
 66
1
 40
0.150000
 41
0.150000
  0
VERTEX
  8
29_FRONTPLATTEKONTUREN
 10
-15.075000
 20
30.000000
 42
1
  0
VERTEX
  8
29_FRONTPLATTEKONTUREN
 10
-14.925000
 20
30.000000
  0
SEQEND
  0
POLYLINE
  8
29_FRONTPLATTEKONTUREN
 66
1
 40
0.150000
 41
0.150000
  0
VERTEX
  8
29_FRONTPLATTEKONTUREN
 10
-15.075000
 20
50.000000
 42
-1
  0
VERTEX
  8
29_FRONTPLATTEKONTUREN
 10
-14.925000
 20
50.000000
  0
SEQEND
  0
POLYLINE
  8
29_FRONTPLATTEKONTUREN
 66
1
 40
0.300000
 41
0.300000
  0
VERTEX
  8
29_FRONTPLATTEKONTUREN
 10
-15.000000
 20
50.000000
  0
VERTEX
  8
29_FRONTPLATTEKONTUREN
 10
-120.000000
 20
50.000000
  0
SEQEND
  0
POLYLINE
  8
29_FRONTPLATTEKONTUREN
 66
1
 40
0.150000
 41
0.150000
  0
VERTEX
  8
29_FRONTPLATTEKONTUREN
 10
-15.000000
 20
49.925000
 42
1
  0
VERTEX
  8
29_FRONTPLATTEKONTUREN
 10
-15.000000
 20
50.075000
  0
SEQEND
  0
POLYLINE
  8
29_FRONTPLATTEKONTUREN
 66
1
 40
0.150000
 41
0.150000
  0
VERTEX
  8
29_FRONTPLATTEKONTUREN
 10
-120.000000
 20
49.925000
 42
-1
  0
VERTEX
  8
29_FRONTPLATTEKONTUREN
 10
-120.000000
 20
50.075000
  0
SEQEND
  0
POLYLINE
  8
29_FRONTPLATTEKONTUREN
 66
1
 40
0.300000
 41
0.300000
  0
VERTEX
  8
29_FRONTPLATTEKONTUREN
 10
-140.000000
 20
45.000000
 42
0.414214
  0
VERTEX
  8
29_FRONTPLATTEKONTUREN
 10
-150.000000
 20
35.000000
  0
SEQEND
  0
POLYLINE
  8
29_FRONTPLATTEKONTUREN
 66
1
 40
0.150000
 41
0.150000
  0
VERTEX
  8
29_FRONTPLATTEKONTUREN
 10
-140.000000
 20
44.925000
 42
1
  0
VERTEX
  8
29_FRONTPLATTEKONTUREN
 10
-140.000000
 20
45.075000
  0
SEQEND
  0
POLYLINE
  8
29_FRONTPLATTEKONTUREN
 66
1
 40
0.150000
 41
0.150000
  0
VERTEX
  8
29_FRONTPLATTEKONTUREN
 10
-149.925000
 20
35.000000
 42
-1
  0
VERTEX
  8
29_FRONTPLATTEKONTUREN
 10
-150.075000
 20
35.000000
  0
SEQEND
  0
POLYLINE
  8
29_FRONTPLATTEKONTUREN
 66
1
 40
0.300000
 41
0.300000
  0
VERTEX
  8
29_FRONTPLATTEKONTUREN
 10
-150.000000
 20
-32.000000
 42
0.414214
  0
VERTEX
  8
29_FRONTPLATTEKONTUREN
 10
-140.000000
 20
-42.000000
  0
SEQEND
  0
POLYLINE
  8
29_FRONTPLATTEKONTUREN
 66
1
 40
0.150000
 41
0.150000
  0
VERTEX
  8
29_FRONTPLATTEKONTUREN
 10
-149.925000
 20
-32.000000
 42
1
  0
VERTEX
  8
29_FRONTPLATTEKONTUREN
 10
-150.075000
 20
-32.000000
  0
SEQEND
  0
POLYLINE
  8
29_FRONTPLATTEKONTUREN
 66
1
 40
0.150000
 41
0.150000
  0
VERTEX
  8
29_FRONTPLATTEKONTUREN
 10
-140.000000
 20
-41.925000
 42
-1
  0
VERTEX
  8
29_FRONTPLATTEKONTUREN
 10
-140.000000
 20
-42.075000
  0
SEQEND
  0
POLYLINE
  8
29_FRONTPLATTEKONTUREN
 66
1
 40
0.300000
 41
0.300000
  0
VERTEX
  8
29_FRONTPLATTEKONTUREN
 10
150.000000
 20
35.000000
 42
0.414214
  0
VERTEX
  8
29_FRONTPLATTEKONTUREN
 10
140.000000
 20
45.000000
  0
SEQEND
  0
POLYLINE
  8
29_FRONTPLATTEKONTUREN
 66
1
 40
0.150000
 41
0.150000
  0
VERTEX
  8
29_FRONTPLATTEKONTUREN
 10
149.925000
 20
35.000000
 42
1
  0
VERTEX
  8
29_FRONTPLATTEKONTUREN
 10
150.075000
 20
35.000000
  0
SEQEND
  0
POLYLINE
  8
29_FRONTPLATTEKONTUREN
 66
1
 40
0.150000
 41
0.150000
  0
VERTEX
  8
29_FRONTPLATTEKONTUREN
 10
140.000000
 20
44.925000
 42
-1
  0
VERTEX
  8
29_FRONTPLATTEKONTUREN
 10
140.000000
 20
45.075000
  0
SEQEND
  0
POLYLINE
  8
29_FRONTPLATTEKONTUREN
 66
1
 40
0.300000
 41
0.300000
  0
VERTEX
  8
29_FRONTPLATTEKONTUREN
 10
140.000000
 20
-42.000000
 42
0.414214
  0
VERTEX
  8
29_FRONTPLATTEKONTUREN
 10
150.000000
 20
-32.000000
  0
SEQEND
  0
POLYLINE
  8
29_FRONTPLATTEKONTUREN
 66
1
 40
0.150000
 41
0.150000
  0
VERTEX
  8
29_FRONTPLATTEKONTUREN
 10
140.000000
 20
-41.925000
 42
1
  0
VERTEX
  8
29_FRONTPLATTEKONTUREN
 10
140.000000
 20
-42.075000
  0
SEQEND
  0
POLYLINE
  8
29_FRONTPLATTEKONTUREN
 66
1
 40
0.150000
 41
0.150000
  0
VERTEX
  8
29_FRONTPLATTEKONTUREN
 10
149.925000
 20
-32.000000
 42
-1
  0
VERTEX
  8
29_FRONTPLATTEKONTUREN
 10
150.075000
 20
-32.000000
  0
SEQEND
  0
POLYLINE
  8
29_FRONTPLATTEKONTUREN
 66
1
 40
0.300000
 41
0.300000
  0
VERTEX
  8
29_FRONTPLATTEKONTUREN
 10
48.000000
 20
13.000000
  0
VERTEX
  8
29_FRONTPLATTEKONTUREN
 10
48.000000
 20
-13.000000
  0
SEQEND
  0
POLYLINE
  8
29_FRONTPLATTEKONTUREN
 66
1
 40
0.150000
 41
0.150000
  0
VERTEX
  8
29_FRONTPLATTEKONTUREN
 10
48.075000
 20
13.000000
 42
1
  0
VERTEX
  8
29_FRONTPLATTEKONTUREN
 10
47.925000
 20
13.000000
  0
SEQEND
  0
POLYLINE
  8
29_FRONTPLATTEKONTUREN
 66
1
 40
0.150000
 41
0.150000
  0
VERTEX
  8
29_FRONTPLATTEKONTUREN
 10
48.075000
 20
-13.000000
 42
-1
  0
VERTEX
  8
29_FRONTPLATTEKONTUREN
 10
47.925000
 20
-13.000000
  0
SEQEND
  0
POLYLINE
  8
29_FRONTPLATTEKONTUREN
 66
1
 40
0.300000
 41
0.300000
  0
VERTEX
  8
29_FRONTPLATTEKONTUREN
 10
48.000000
 20
-13.000000
  0
VERTEX
  8
29_FRONTPLATTEKONTUREN
 10
120.000000
 20
-13.000000
  0
SEQEND
  0
POLYLINE
  8
29_FRONTPLATTEKONTUREN
 66
1
 40
0.150000
 41
0.150000
  0
VERTEX
  8
29_FRONTPLATTEKONTUREN
 10
48.000000
 20
-12.925000
 42
1
  0
VERTEX
  8
29_FRONTPLATTEKONTUREN
 10
48.000000
 20
-13.075000
  0
SEQEND
  0
POLYLINE
  8
29_FRONTPLATTEKONTUREN
 66
1
 40
0.150000
 41
0.150000
  0
VERTEX
  8
29_FRONTPLATTEKONTUREN
 10
120.000000
 20
-12.925000
 42
-1
  0
VERTEX
  8
29_FRONTPLATTEKONTUREN
 10
120.000000
 20
-13.075000
  0
SEQEND
  0
POLYLINE
  8
29_FRONTPLATTEKONTUREN
 66
1
 40
0.300000
 41
0.300000
  0
VERTEX
  8
29_FRONTPLATTEKONTUREN
 10
120.000000
 20
-13.000000
  0
VERTEX
  8
29_FRONTPLATTEKONTUREN
 10
120.000000
 20
13.000000
  0
SEQEND
  0
POLYLINE
  8
29_FRONTPLATTEKONTUREN
 66
1
 40
0.150000
 41
0.150000
  0
VERTEX
  8
29_FRONTPLATTEKONTUREN
 10
119.925000
 20
-13.000000
 42
1
  0
VERTEX
  8
29_FRONTPLATTEKONTUREN
 10
120.075000
 20
-13.000000
  0
SEQEND
  0
POLYLINE
  8
29_FRONTPLATTEKONTUREN
 66
1
 40
0.150000
 41
0.150000
  0
VERTEX
  8
29_FRONTPLATTEKONTUREN
 10
119.925000
 20
13.000000
 42
-1
  0
VERTEX
  8
29_FRONTPLATTEKONTUREN
 10
120.075000
 20
13.000000
  0
SEQEND
  0
POLYLINE
  8
29_FRONTPLATTEKONTUREN
 66
1
 40
0.300000
 41
0.300000
  0
VERTEX
  8
29_FRONTPLATTEKONTUREN
 10
48.000000
 20
13.000000
  0
VERTEX
  8
29_FRONTPLATTEKONTUREN
 10
120.000000
 20
13.000000
  0
SEQEND
  0
POLYLINE
  8
29_FRONTPLATTEKONTUREN
 66
1
 40
0.150000
 41
0.150000
  0
VERTEX
  8
29_FRONTPLATTEKONTUREN
 10
48.000000
 20
13.075000
 42
1
  0
VERTEX
  8
29_FRONTPLATTEKONTUREN
 10
48.000000
 20
12.925000
  0
SEQEND
  0
POLYLINE
  8
29_FRONTPLATTEKONTUREN
 66
1
 40
0.150000
 41
0.150000
  0
VERTEX
  8
29_FRONTPLATTEKONTUREN
 10
120.000000
 20
13.075000
 42
-1
  0
VERTEX
  8
29_FRONTPLATTEKONTUREN
 10
120.000000
 20
12.925000
  0
SEQEND
  0
ENDSEC
  0
EOF
